Friday, December 31, 2010

Guitar chords for Bin there Reprise-I hate love stories

C Em Am(played without voice)


C Am C Am G(deodling here....)


Teri Nigahon ke
......c............
Teri hi raahon ke
........Am..........
Kareeb se gai zindagi
..F.......G........c...

Tujhe kyun dekha na
.....C.............
Tujhe kyun jana na
......Am..........
Shikayatein karun ya nahi
...F..........G........C..


Thami hai yeh saasein
..Am..................
Bhari hai yeh aanhkein
....C........Em.......
Sahu kaise abb yeh fasla
...Am...............G..


Bin Tere Bin Tere Bin Tereeee
...C.......Em..........Am
Koi khalish hai hawaon mein Bin Tere
....G..............F...............C


Bin Tere Bin Tere Bin Tereeee
...C.......Em..........Am
Koi khalish hai hawaon mein Bin Tere
....G..............F...............C

INSTRUMENTAL PART NOW

NOTE: 1) wherever I have put (s) it means slide through the strings in the fashion mentioned
2) "BEND STRINGS" means that you have to pull that string in that same fret while pressing the string in the same fret down or up along the fret board while pressing at the fret position mentioned....guys I don't think I am able to explain what i mean but I am sure other guys who know guitarring terms would help me in giving a name to the "BEND STRINGS" definition of mine. I am sure people must have understood what I mean.

following is my convention of mentioning tabs

=============================(1st string)
-------------------------------------(2nd string)
-------------------------------------(3rd string)
-------------------------------------(4th string)
-------------------------------------(5th string)
=============================(6th string)


==============================
---------------------------------------
----2-4-5-4---------------------------
--2---------s(5-7-5)--s(1-2)--5-2-----
---------------------------------------
==============================



=============================
--------------------------------------
--2-4--s(5-9)-7-5-4-------------------
--------------------s(5-7-5)-2--------
--------------------------------------
=============================


=============================
--------------------------------------
--2-4-s(5-9)--9-2-4--s(5-12)-12-------
--------------------------------------
--------------------------------------
=============================



now the part that seems too fast to play




================================================== =========
----10-12-12(bend string)-10-8---------------------------------------------
--9----------------------------9--s(7-9-7)-5--s(4-5-4)-2-------------------
---------------------------------------------------------5-----------------
-----------------------------------------------------------s(5-7)--5-3-2---
================================================== =========


now the last part

================================================== ======
---------------------------------------s(4-5)-3--s(8-12)-12(bend string))--
--5-4-0-5-4-0-2-s(2-3)-2-0-2-4-5-4-0-------------------------------------
-------------------------------------------------------------------------
-------------------------------------------------------------------------
================================================== =======



Kuch bacha hi nahi darmiyan
.....C...............Am.....
Saaans leti hai abb yeh dooriyann
.......G........F.............C..

Dil nahi janta raahon mein
.....C...............Am.....
Haath se haath chhoote the kahan
.......G........F.............C..
Kyun Nazar ke kinaare Tutte hai khwaab saaare Tu bata
.......C........Am..........C...........Am........ G...
Suna suna sama hai Khali khali jahan hai aab mera
.....C.......Am..........C.......Am............G.. .

Bin Tere Bin Tere Bin Tereeee
...C.......Em..........Am
Koi khalish hai hawaon mein Bin Tere
....G..............F...............C

hoooo Bin Tere Bin Tere Bin Tereeee
.........C.......Em..........Am
Koi khalish hai hawaon mein Bin Tere
....G..............F...............C

Bin there guitar chords-I hate Love stories

E......................................
Lost and lonely coz you’re the only one
...........A........................B....
That knows me and I can’t be without you
E......................................
Lost and lonely coz you’re the only one
...........A........................B....
That knows me and I can’t be without you

E...............C#m.....A..........B...
Hai kya yeh jo tere mere darmiyaan hai
E.........C#m.....A......B...E...
Andekhi ansuni koi dastaan hai
E...............C#m.....A..........B...
Hai kya yeh jo tere mere darmiyaan hai
E.........C#m.....A......B...E...
Andekhi ansuni koi dastaan hai
A.......B....A....B......A...
Lagne lagi, ab zindagi khaali
E.......
Hai meri
A......B....A.....B........A....................
Lagne lagi har saans bhi khaali (lost and lonely)
E.........................A..................
Bin tere, bin tere, bin tere (lost and lonely)
......Bm...........D......A........E.............. ....
Koi khalish hai hawayon mein bin tere (lost and lonely)
E.........................A..................
Bin tere, bin tere, bin tere (lost and lonely)
......Bm...........D......A........E.............. ....
Koi khalish hai hawayon mein bin tere (lost and lonely)

E...........C#m..........F#m...
Ajnabi se huye kyun pal saare
A........................D.....C...E...
Yeh nazar se nazar yeh milaate hi nahin
E...........C#m..........F#m...
Ik gani dehaayi cha gayi hai
A........................D.....C...E...
Manzilein raaston mein hi gum hone lagi
A..........Bm........D.....E....
Ho gayi ansuni har dua ab meri
A..........Bm.........E.................
Reh gayi ankahi bin tere (lost and lonely)

Bin tere, bin tere, bin tere (lost and lonely)
Koi khalish hai hawayon mein bin tere (lost and lonely)
Bin tere, bin tere, bin tere (lost and lonely)
Koi khalish hai hawayon mein bin tere (lost and lonely)

E.................F#m...............A....
Raah mein roshni ne hai kyun haath choda
E................F#m..............A......
Iss taraf shaam ne kyun hai apna muh moda
E....C#m.............A...............B......
Yun ke har subah ik bereham si raat ban gayi
E...............C#m..............A.....
Hai kya yeh jo tere mere darmiyaan hai
E...............A........B.....
Andekhi ansuni koi dastaan hai
E......C#m...............A.......B...
Lagne lagi, ab zindagi khaali khaali
E.......C#m...........A........
Lagne lagi har saans bhi khaali (lost and lonely)

Bin tere, bin tere, bin tere (lost and lonely)
Koi khalish hai hawayon mein bin tere (lost and lonely)
Bin tere, bin tere, bin tere (lost and lonely)
Koi khalish hai hawayon mein bin tere (lost and lonely)
Bin tere, bin tere, bin tere (lost and lonely)
Koi khalish hai hawayon mein bin tere .. lost and lonely ..
lost and lonely…lost and lonely

Thursday, December 30, 2010

Mera dil bhi kitanaa paagal hai

Meraa Dil Bhii Kitanaa Paagal Hai
A..............D.................
Ye Pyaar Jo Tum Se Karataa Hai ) \- 2
Bm...........D.............A...
Par Saamane Jab Tum Aate Ho, Kuchh Bhii Kahane Se Darataa Hai
A...........C#m..........F#m..Bm...............D.........A...
O Mere Saajan, O Mere Saajan, Saajan Saajan, Mere Saajan...
A.......F#m....F#m......A.....A.....F#m......Bm......A.....
Meraa Dil Bhii Kitanaa Paagal Hai ...
A..............D.................

Kitanaa Isako Samajhaataa Huu.N, Kitanaa Isako Bahalaataa Huu.N \-2
A.......D......F#m...............A.......D......F#m........A.......
Naadaa.N Hai Kuchh Na Samajhataa Hai, Din Raat Ye Aahe.N Bharataa Hai ...
A............D.........Bm.......................D................A...
Meraa Dil Bhii Kitanaa Paagal Hai ...
A..............D.................

Har Pal Mujhako Ta.Dapaataa Hai, Mujhe Saarii Raat Jagaataa Hai \-2
A.......D......F#m...............A.......D......F#m........A.......
Is Baat Ki Tumako Khabar Nahii.N, Ye Sirf Tumhii Pe Marataa Hai
A............D.........Bm.......................D................A...
Meraa Dil Bhii Kitanaa Paagal Hai ..
A..............D.................

Bahut pyaar karthe hai..

Bahut pyaar karate hai.n, tumako sanam (2)
Dm..........C......A#.............Dm....
qasam chaahe le lo (2)
F............Gm.....
khudaa kii qasammmmmmm
C..........A#....c..Dm..

hame.n har gha.Dii, aarazuu hai tumhaarii (2)
Dm.........Gm.......C............Dm......
hotii hai kaisii, sanam beqaraarii
Dm........Gm......C......Dm......
mile.nge jo tumako to (2)
F............Gm.....
bataaye.nge hammmmmmmmm
C..........A#....c..Dm..

bahut pyaar ...
Dm.......
hamaarii Gazal hai, tassavur tumhaaraa (2)
Dm.........Gm.......C............Dm......
tumhaare binaa ab, naa jiinaa hamaaraa
Dm........Gm......C......Dm...........
tumhe yuu.n hii chaahe.nge (2)
F............Gm.....
jab tak hai dammmmmmm
C..........A#....c..Dm..
bahut pyaar ...
Dm.......
saagar kii baaho.n me.n, mauje.n hai.n jitanii (2)
Dm.........Gm.......C............Dm..........
hamako bhii tumase, muhabbat hai utanii
Dm........Gm......C......Dm...........
ke ye beqaraarii naa (2)
F............Gm.....
ab hogii kammmmmmmmmm
C..........A#....c..Dm..
bahut pyaar ...
Dm.......

Monday, December 27, 2010

Zara si Dilme guitar chords

(Bm)ZARA SI DIL MEIN DE (G)JAGAH TU (A)ZARA SA APNA LE (Bm)BANA
(Bm)ZARA SA KHAWBON MEIN (G)SAJA TU (A)ZARA SA YAADON MEIN (Bm)BASA
(G)MEIN CHAHUN TUJHKO (A)MERI JAAN BEPAN(Bm)AH
(G)FIDA HOON TUJHPE (A)MERI JAAN BEPAN(Bm)AH
Wo Wo Wo……….(Bm A – Bm A – Bm A – G)
Wo Wo Wo……….(Bm A – Bm A – Bm A – Bm)

STANZA 1

(D)MEIN TERE MEIN TERE (A)KADMON MEIN RAKH DU YEH JAHAN
(Bm)MERA ISHQ DEEWANGI(A)……(G)OOOOOOO(A)OOO
(D)HAI NAHI HAI NAHI (A)ASHIQ KOI MUJHSA TERA
(Bm)TU MERE LIYE BANDAGI(A)……(G)OOOOOOO(A)OOO
(G)MEIN CHAHUN TUJHKO (A)MERI JAAN BEPAN(Bm)AH
(G)FIDA HOON TUJHPE (A)MERI JAAN BEPAN(Bm)AH
Wo Wo Wo……….(Bm A – Bm A – Bm A – G)
Wo Wo Wo……….(Bm A – Bm A – Bm A – Bm)

STANZA 2

(D)KEH BHI DI KEH BHI DE (A)DIL MEIN TERE HAI JO CHHUPA
(Bm)KHWAISH JO HAI TERI(A)……(G)OOOOOOO(A)OOO
(D)RAKH NAHI RAKH NAHI (A)PARDA KOI MUJHSE E JAAN
(Bm)KAR LE TU MERA YAKIN(A)……(G)OOOOOOO(A)OOO
(G)MEIN CHAHUN TUJHKO (A)MERI JAAN BEPAN(Bm)AH
(G)FIDA HOON TUJHPE (A)MERI JAAN BEPAN(Bm)AH
Wo Wo Wo……….(Bm A – Bm A – Bm A – G)
Wo Wo Wo……….(Bm A – Bm A – Bm A – Bm)

Sunday, December 26, 2010

Abhi Kuch Dino Se by Mohit Chauhan Guitar Chords

E G#m

Abhi kuch dino se lag raha hai

A B
Badle badle se hum hai

E G#m
Hum baithe baithe din mein sapne

A B
Dekte neendein kam hai,

E G#m
Abhi kuch dino se lag raha hai

A B
Badle badle se hum hai

E G#m
Hum baithe baithe din mein sapne

A B
Dekte neendein kam hai,


E G#m
Abhi kuch dino se suna hai dil ka

A B
Rob hi kuch naya hai

E G#m
Koi raaz kambakht hai chupaye

A B
khuda hi jaane ki kya hai

G#m
Hai dil pe shaq mera
A
Ise pyaar ho gaya,


E G#m

Abhi kuch dino se main sochta hoon

A B
ki dil ki thodi si sun loon

E G#m
Yaha rehne aayegi Dil saja loon mein

A B

khwab thode se boon loon

G#m
Hai dil pe shaq mera

A
Ise pyaar ho gaya,

E/G#m/A/B
E/G#m/A/B

E G#m
Tu bekhabar , Ya sab khabar

A G#m G#m A
Ek din zara mere masoom dil pe gaur kar

A F#m
Pardon mein main rakh loon tujhe

F#m F#m B E
Ki dil tera aa na jaaye kahin yeh gair par


E G#m
Hum bhole hai , Sharmile hai

A G#m G#m A
Hum hai zara siddhe masoom itni khair kar

A F#m
Jis din kabhi Zidd pe ade

F#m F#m B E
Hum ayenge aag ka tera dariya tair kar



E G#m

Abhi kuch dino se lage mera dil

A B
Duth ho jaise nashe mein

E G#m
kyun lad khadaye yeh beheke gaye

A B
hai tere har raaste pe

G#m
Hai dil pe shaq mera
A
Ise pyaar ho gaya,


E G#m

Banke shehar chal raat bhar

A G#m G#m A
Tu aur main toh musafir bhatakte hum phire

A F#m
Chal raaste jahan le chale

F#m F#m B E
Sapnon ke phir teri aahon mein thak ke hum gire


E G#m
Koi pyaar ki , Tarkeeb ho

A G#m G#m A
Nuskhe koi jo sikhaye toh hum bhi seekh le

A F#m
Yeh pyaar hai rehta kaha

F#m F#m B E
Koi humse kahe us se jaa k pooch le


E G#m
Mein sambhaloon pau Pisal na jau

A B
Nayee nayee dosti hai

E G#m
Zara dekh bhal sambhal ke chalna

A B
Keh rahi zindagi hai
G#m

Hai dil pe shaq mera

A
Ise pyaar ho gaya,

E G#m
Abhi kuch dino se suna hai dil ka

A B
Rob hi kuch naya hai

E G#m
Koi raaz kambakht hai chupaye

A B
Khuda hi jaane ki kya hai

G#m
Hai dil pe shaq mera
A
Ise pyaar ho gaya. . .

Justin Biber-Baby

C           Am          F           G
Ohh wooaah, Ohh wooaah, Ohh wooaah, Ohh wooaah

C
You know you love me,I know you care
Am
You shout whenever, And I'll be there
F
You want my love, You want my heart
G
And we will never ever ever be apart

C
Are we an item? Girl quit playing
Am
We're just friends, What are you saying?
F
Said there's another, Look right in my eyes
G
My first love broke my heart for the first time,

And I was like

C
Baby, baby, baby nooo
Am
I'm like baby, baby, baby noo
F
I'm like baby, baby, baby nooo
G
I thought you'd always be mine mine
C
Baby, baby, baby nooo
Am
I'm like baby, baby, baby noo
F
I'm like baby, baby, baby nooo
G
I thought you'd always be mine, oh oh

C
For you, I would have done whatever
Am
And I just can't believe we're here together
F
And I gotta play it cool, 'cause I'm loosin' you
G
I'll buy you anything, I'll buy you any ring
C
'Cause I'm in pieces, baby fix me
Am
And you shake me 'til you wake me from this bad dream
F
I'm going down, down, dooown
G
And I just can't believe my first love won't be around,

And I'm like

C
Baby, baby, baby nooo
Am
I'm like baby, baby, baby noo
F
I'm like baby, baby, baby nooo
G
I thought you'd always be mine mine
C
Baby, baby, baby nooo
Am
I'm like baby, baby, baby noo
F
I'm like baby, baby, baby nooo
G
I thought you'd always be mine, mine

C Am
You can give all of your love,
F
But sometimes it won't be enough
G
Never told me this day would come,
C
Now I'm all gone
Am
You can give all your love,
F
But sometimes it won't be enough
G
Never told me this day would come

'Cause I was like

C
Baby, baby, baby nooo
Am
I'm like baby, baby, baby noo
F
I'm like baby, baby, baby nooo
G
I thought you'd always be mine mine

C
Yeah yeah yeah, yeah yeah yeah
Am
Yeah yeah yeah, yeah yeah yeah
F
Yeah yeah yeah
G
Now I'm all gone, gone, gone, gone
C
I'm goooooooone

Neele Neele ambar

Neele Neele Amber Par

[Slow Refrain, rhythm guitar tacet]
Dm C Dm
Neele neele ambar par, chaand jab aaye
Dm C Dm
pyaar barasaae, hamako tarasaaye
Dm
Aisaa koii saathii ho
C
aisaa koii premii ho
Bb Dm/A
pyaas dil kii bujhaa jaae
Dm C Dm
Neele neele ambar par, chaand jab aaye
Dm C Dm
pyaar barasaae, hamako tarasaaye
Dm . C . Dm C Dm-C-Bb Dm Dm . Dm C C G Dm
Guitar + strings
[Verse 1]
Dm
Ho, uunche uunche parvat, jab
C
chuumate hai ambar ko
Bb Gm
pyaasaa pyaasaa ambar,
Dm A
jab chuumataa hai saagar ko [2x
Dm C
pyaar men nahAne ko, DUb hii jaane ko
Dm C
koI to aa jAe, khvaab jagaa jAye
aisaa koI saathii ho
aisaa koI premii ho
pyaas dil kii bujhaa jae
[Main tempo]

Dm Dm Dm Dm Dm C (F C - 1/2 bar each) Dm
Dm C
Ho, ThanDe ThanDe jhonke, jab baalon ko sahalaaen
Bb Dm
tapatii tapatii kiraNen, jab gaalon ko chhU jAen [2x]

C Dm
saanson kii garamii ko, haathon kii naramii ko
C Dm
dil meraa tarasaaem, koI to chhU jAye
Dm, C
aisaa koI saathii ho aisaa koI premii ho
Bb A
pyaas dil kii bujhaa jAe
Neele neele ...

[Interlude 1 repeats] [Verse 3]
Dm C
Chham chham karataa sAvan, bUndon ke baaN chalAe
Bb Gm Dm A
satarangii barasaaton men jab, tan man bhIgaa jaae [2x]

[Refrain]
pyaar men nahAne ko, DUb hii jaane ko
koI to aa jAe, khvaab jagaa jAye
aisaa koI saathii ho
aisaa koI premii ho
pyaas dil kii bujhaa jae

Neele neele ...
La la la ...

You sang to me - Marc Anthony

Intro:Bb Gm Eb(2x) F
Bb Gm Eb F
Bb (oh -oh ) F

Verse:

Bb
I just . . . . . .comfort me
When . . . . . last night you see

Gm
I was fal ling. . . . . . love
Yes. . . . . . .crashing into love

Eb
Oh of all . . . . . . . . . . to me

F
About life . . . . . . . .being free

Bb
Yeah. . . sang to me
F
Oh . . . . . . . sa ng to me

(subsequent verses follow the same pattern)

Chorus:

Bb
All the whil e . . . . . . . I never realized

Gm
I just ca n't believe . . . . . in your eyes

Eb
. . . . . .s ee it

F
. . . . . . believe it

Bb
. . . . . . . . feel it
F
. . . . . . . . . sing to me

(Second half of the chorus follows the same pattern)

James Houston (jhouston@sas.upenn.edu)

I didn't steal this from anywhere :).

END

Winds of change-Scorpions


F Dm
PM PM P Vibr.........

1:------------------------------------------------------------------


2:------------------------------------------------------------------


3:------10---------------16-----------------------------------------


4:------10------------15-17--15-------------------------------------


5:-8----8-----0-15-17------------17---------------------------------


6:------------------------------------------------------------------

F Dm
PM PM P Vibr.........

1:------------------------------------------------------------------


2:------------------------------------------------------------------


3:------10---------------16-----------------------------------------


4:------10------------15-17--15-15----15----------------------------


5:-8----8-----0-15-17--------------17---(17)------------------------


6:------------------------------------------------------------------

Am Dm Am G
P

1:----------------------------------1-----------0-------------------


2:-------------------------------------3-----------1-------3--------


3:--16------------------------------------2-----------2-------4-----


4:--17-15-------17/19------------0-------------------------------5--


5:--------17----15/17-17--15-----------------0---------------------


6:--------------------------------------------------------3---------

Rhytmn Fill1
C
Verse1(without acoustic guitar):
w/keyboard
Fill1
C Dm C
I follow the Mosk va down to Gorky Park ,
Rhytmn Fill2 Rhytmn Fill1
C Dm Am G C
listening to the wind of change
C Dm C
An August summer night, soldiers passing by ,
Fill2
Rhytmn Fill2 Rhytmn Fill1
C Dm Am G
listening to the wind of change
Interlude:
w/acoustic guitar+keyboard+distortion guitar
F Dm
PM PM P Vibr.........

1:------------------------------------------------------------------


2:------------------------------------------------------------------


3:------10---------------16-----------------------------------------


4:------10------------15-17--15-------------------------------------


5:-8----8-----0-15-17------------17---------------------------------


6:------------------------------------------------------------------

F Dm
PM PM P Vibr.........

1:------------------------------------------------------------------


2:------------------------------------------------------------------


3:------10---------------16-----------------------------------------


4:------10------------15-17--15-15----15----------------------------


5:-8----8-----0-15-17--------------17-------------------------------


6:------------------------------------------------------------------

R.Fill2 R.Fill1
Am Dm Am G C
P

1:------------------------------------------------------------------


2:------------------------------------------------------------------


3:--16--------------------------------------------------------------


4:--17-15-------17/19-----------/19--/17----------------------------


5:--------17----15/17-15-15-----/17--/15--14------------------------


6:------------------------------------------------------------------

Verse2:
w/acoustic guitar+keyboard
C Dm C
The world is closing i n, and did you ever think
Fill3 R.Fill2 R.Fill1
C Dm Am G C
that we could be so close like broth ers
C Dm C
The future's in the air can feel it everywhe re
Fill4 R.Fill2
C Dm Am G
a blowin' in the wind of change
Chorus:
w/distortion guitar+acoustic guitar
C G Dm G C G
Take m e to the magic of the moment on a glory night ,
Dm G Am F G
where the children of tom orrow dream aw ay in the wind of c hange
Fill5
R.Fill2w/acoustic
C
Verse3:
w/acoustic guitar+keyboard
C Dm C
Walking down the street, distant memorie s
R.Fill2 R.Fill1
C Dm Am G C
are buried in the past fo rever
Fill6
C Dm C
I follow the Mosk va down to Gorky Park
R.Fill2
C Dm Am G
listen to the wind of change
Chorus:
w/distortion guitar+acoustic guitar
C G Dm G C G
Take m e to the magic of the moment on a glory night ,
Dm G Am F G
where the children of tom orrow share their dream s with you and m e
C G Dm G C G
Take m e to the magic of the moment on a glory night ,
Dm G Am F G
where the children of tom orrow dream aw ay in the wind of c hange
Bridge:
w/clean E-guitar+acoustic guitar
Fill7
Am G
The wind of change blows straight into the face of time,
Am G
like a stormwind that will ring the freedom bell for peace of mind.
C Dm E7
let your balalaika s ing what my guitar wants to sing
Solo:
E7
B B B Vib.

1:------------------------------------------------------------------


2:----------12-(13)-12-12-----------12-(13)-12-(13)-12--15/17-------


3:------14----------------------14----------------------------------


4:---14---------------------14--------------------------------------


5:------------------------------------------------------------------


6:------------------------------------------------------------------

E7 F G E7 B B
1:--------------------------------------------------------------------


2:---------12--13-----------------------------------------------------


3:-14--14----------14--12-14-12--14--12----12-(14)--12--12--9--10-(12)


4:--------------------------------------14-------------------------------


5:---------------------------------------------------------------------


6:---------------------------------------------------------------------

E7 Am F B
1:--------------------------------------0---------------------------


2:----------------------------------12--12-(13)-12-(13)-12-(13)-----


3:-10-9-7--9-(7)--9--7--5--7--7--14---------------------------------


4:------------------------------------------------------------------


5:------------------------------------------------------------------


6:------------------------------------------------------------------

Fill8
G Am F G E
1:----15-----------17---15--13---12--13--12-------------------------


2:--------13--12-------------------------------------13--12---12----


3:-----------------------------------------------14-----------------


4:------------------------------------------------------------------


5:------------------------------------------------------------------


6:------------------------------------------------------------------

Am Dm E7 B
1:-----------12-----12------13------------------16-16-14-----14-16---


2:--13--15-------15----15---------15-(17)--15-------------17---------


3:-------------------------------------------------------------------


4:-------------------------------------------------------------------


5:-------------------------------------------------------------------


6:-------------------------------------------------------------------

Chorus:
w/distortion guitar+acoustic guitar
C G Dm G C G
Take m e to the magic of the moment on a glory night ,
Dm G Am F G
where the children of tom orrow share their dream s with you and m e
C G Dm G C G
Take m e to the magic of the moment on a glory night ,
Dm G Am F G
where the children of tom orrow dream aw ay in the wind of c hange
Outro (without acoustic guitar):
w/ keyboard+distortion guitar
F Dm

When you say nothin at all- Ronan Keating

C D
Try as I may, I can never explain
G D C D - Dsus4 - D - Dsus4 - D
What I hear when you don't say a thing

Chorus (play rhythm now)
G D C D
The smile on your face lets me k now that you need me
G D C
There's a truth in your eyes saying you' ll never
D
le ave me
G D C
The touch of your hand says you'l l catch me where
D - C - D
ever I fall
C D(pause) G
You say it best, when you say nothing at all

Rpt Intro & chords as before:

All day long I can hear people talking out loud
But when you hold me near, you drown out the crowd
Try as they may, they can never define
What's been said between your heart and mine
The smile on your face lets me know that you need me
There's a truth in your eyes saying you'll never
leave me

The touch of your hand says you'll catch me where
ever I fall
(get ready for key change !) E ..............
You say it best, when you say nothing at all

Instrumental in E (very Irishy!)

..............E B A B (x3).........

Then back to G prog for Rpt chorus & ad lib to end

tbones@bradway91.freeserve.co.uk

END

When u really love a women

Bb G F
Hear every thought, see every dream, and give her wings when she wants to fly
Cm D C Bb A G D/F#
Then when you find yourself lying helpless in h er ar ms , you know you really
C G
love a woman

CHORUS:
G D
When you love a woman, you tell her that she's really wanted
D G
When you love a woman, you tell her that she's the one
G Em7 Am7 D Am7 D
She needs somebody, to tell her that it's gonna last f orev er
Am7 D Am7 D G
So tell me have you ever really... really, really ever loved a woman

VERSE 2:
Eb Cm
To really love a woman, let her hold you,
D
till you know how s he needs to be touched
Bb
You've got to breathe her, really taste her
G
till you can feel her in your blood
F
And when you see your unborn children in her eyes
Cm
you know you really love a woman

CHORUS:
G D
When you love a woman, you tell her that she's really wanted
D G
When you love a woman, you tell her that she's the one
G Em7 Am7 D Am7 D
She needs somebody, to tell her that you'll alwa ys b e toge ther
Am7 D Am7 D G
So tell me have you ever really... really, really ever loved a woman

*BRIDGE:
You've got to
Eb F G
give her some faith, hold her tight, a little t enderness
G
you've got to treat her right
D G
She will be there for you taking good care of you

You really gotta love your woman

SOLO:
Cm D C Bb A G D/F#
And when you find yourself lying he lp les s in her arms,
G/C G
you know you really l ove a wo man

END
Related Posts Plugin for WordPress, Blogger...
There was an error in this gadget