Saturday, December 24, 2011

I'm Sexy and I Know it-LMFAO Lyrics and Guitar tabs

Artist : LMFAO
Song : I'm Sexy and I Know it
Album : Sorry for Party Rocking

F
 
e|-------1------5------5-----8---------------13-----------------------------|
B|-------1------6------6-----10-----10-------13-----------------------------|
G|-------2------5------5-----10-----10-------14-----------------------------|
D|-------3------3------7-----10-----10-------15-----------------------------|
A|-------3-------------8-----8------12-------15-----------------------------|
E|-------1--------------------------13-------13-----------------------------|
 
Gm
 
e|-----3------6---------------10-------15-----------------------------------|
B|-----3------8------8--------11-------15-----------------------------------|
G|-----3------7------7--------12-------12-------0---------------------------|
D|-----5------5------8--------12-------12-------0---------------------------|
A|-----5-------------10-------10----------------1---------------------------|
E|-----3----------------------------------------3---------------------------|
 
Bb
 
e|------1---------------6-------10--------10--------------------------------|
B|------3-------3-------6-------11--------11--------------------------------|
G|------3-------3-------7-------10-------10---------------------------------|
D|------3-------3-------8-------8--------12---------------------------------|
A|------1-------5-------8----------------13---------------------------------|
E|--------------6-------6---------------------------------------------------|
 
C
 
e|-----0-------3---------------8--------12---------12-----------------------|
B|-----1-------5-------5-------8--------13---------13-----------------------|
G|-----0-------5-------5-------9--------12---------12-----------------------|
D|-----2-------5-------5-------10-------10---------14-----------------------|
A|-----3-------3-------7-------10------------------15-----------------------|
E|---------------------8-------8--------------------------------------------|
 
 
Basic melody of the Song
 
e|-------------------||------------------------------------------------------|
B|-------------------||------------------------------------------------------|
G|-------------------||------------------------------------------------------|
D|-------------------||--------------------------5---------------------------|
A|---------------3---||------------3-----------------------------------------|
E|------3---3h6------||---3---3h6---------3-3-3------------------------------

Here are the Lyrics of "Sexy and I know it"
 
When I walk on by, girls be looking like damn he fly
I pay to the beat, walking on the street in my new lafreak, yeah
This is how I roll, animal print, pants out control,
It's real fool with the big afro
They like bruce lee rock at the club
 
Girl look at that body 
Girl look at that body 
Girl look at that body
I work out
Girl look at that body
Girl look at that body
Girl look at that body
I work out
 
When I walk in the spot, this is what I see
Everybody stops and they staring at me
I got passion in my pants and I ain't afraid to show it
 
I'm sexy and I know it 
I'm sexy and I know it
 
When I'm at the moss, purity just can't fight them off
When I'm at the beach, I'm in a speedo trying to tan my cheeks
This is how I roll, come on ladies it's time to go
We headed to the bar, baby don't be nervous
No shoes, no shirt, and I still get service
 
Girl look at that body 
Girl look at that body 
Girl look at that body
I work out
Girl look at that body
Girl look at that body
Girl look at that body
I work out
 
When I walk in the spot, this is what I see
Everybody stops and they staring at me
I got passion in my pants and I ain't afraid to show it
 
I'm sexy and I know it 
I'm sexy and I know it
 
Wiggle, wiggle, wiggle, wiggle, wiggle yeah 
Wiggle, wiggle, wiggle, wiggle, wiggle yeah 
Wiggle, wiggle, wiggle, wiggle, wiggle yeah 
 
 
I'M SEXY AND I KNOW IT...
 
Girl look at that body 
Girl look at that body 
Girl look at that body
I work out
Girl look at that body
Girl look at that body
Girl look at that body
I work out

No comments:

Related Posts Plugin for WordPress, Blogger...

Share it