Tuesday, May 17, 2011

Dum maro dum Guitar chords and Tabs

Guitar Chords
Dm
Dum maro Dum
Dm
Mit jaye gum
C
bolo subho shaam
Dm
hare krishna hare raam

Dm .....................C
Duniya ne humko diya kya
C.......................Bb
duniya se hamne liya kya
Bb.......................A
hum sabki parwa kare kyun
A....................Dm
sabne hamara kiya kya

Dm C Bb A
AaaaaaaAaAaaaaaaaaaa...

Guitar Tabs

E|---0-2h3-3-3-3h2h3-----0-2h3-3-3-3h2h3-----0-2h3-3-3-3h2h3---------||
B|-0-------------------0-------------------0-------------------------||
G|-------------------------------------------------------------------||
D|-------------------------------------------------------------------||
A|-------------------------------------------------------------------||
E|-------------------------------------------------------------------||

E|-0--------------||
B|---3--0---------||
G|--------3-------||
D|----------------||
A|----------------||
E|----------------||



E|-0--2-3-0-3------0-0-2-3-0-3----------0-2-0-2----------------------||
B|----------------------------------3-3------------------------------||
G|-------------------------------------------------------------------||
D|-------------------------------------------------------------------||
A|-------------------------------------------------------------------||
E|-------------------------------------------------------------------||
Dum Maro Dum......Mith Jaye Gum....Bolo Subha Shyam(:D)

E|-3-2-3-2-3-2-0--||
B|----------------||
G|----------------||
D|----------------||
A|----------------||
E|----------------||
Hare Krishna Hare Raam...


E|---0-2h3-3-3-3h2h3-----0-2h3-3-3-3h2h3-----0-2h3-3-3-3h2h3---------||
B|-0-------------------0-------------------0-------------------------||
G|-------------------------------------------------------------------||
D|-------------------------------------------------------------------||
A|-------------------------------------------------------------------||
E|-------------------------------------------------------------------||


E|-12-12-12-12-14-12-10-10-----10-10-10-10-14-12-10--8---------------||
B|-------------------------------------------------------------------||
G|-------------------------------------------------------------------||
D|-------------------------------------------------------------------||
A|-------------------------------------------------------------------||
E|-------------------------------------------------------------------||
Chahe Jiyenge Marenge..........Hum Na Kisise Darenge....


E|-8-8-8-8-12-14-12-14-14-----14-14-14-14-15-14-12-12----------------||
B|-------------------------------------------------------------------||
G|-------------------------------------------------------------------||
D|-------------------------------------------------------------------||
A|-------------------------------------------------------------------||
E|-------------------------------------------------------------------||
Humko Na Rokhe Zamana........Jo Chayenge Woh Karenge.....

( "/" means to slide down to the next fred with you finger down-
Example..You pluck the 8 fret on the first string and then you slide
your
finger down to the 7th fret but you dont pluck again)

E|-12-10-12/10----12-10/8----10-8/7----------------------------------||
B|-------------------------------------------------------------------||
G|-------------------------------------------------------------------||
D|-------------------------------------------------------------------||
A|-------------------------------------------------------------------||
E|-------------------------------------------------------------------||
Aaaaaa Aa Aa Aaa Aa Aa Aaa Aa Aa Aaa

E|-0--2-3-0-3------0-0-2-3-0-3----------0-2-0-2----------------------||
B|----------------------------------3-3------------------------------||
G|-------------------------------------------------------------------||
D|-------------------------------------------------------------------||
A|-------------------------------------------------------------------||
E|-------------------------------------------------------------------||
Dum Maro Dum......Mith Jaye Gum....Bolo Subha Shyam(:D)

E|-3-2-3-2-3-2-0--||
B|----------------||
G|----------------||
D|----------------||
A|----------------||
E|----------------||

No comments:

Related Posts Plugin for WordPress, Blogger...
There was an error in this gadget