Sunday, December 26, 2010

Everythn i do-Bryan Adams

C G F G
INTRO





C G F G

Look into my eyes, you will see what you mean to me

C G
Search your heart, search your soul and when you

F C G

find me there, you'll search no more

Dm C Dm
Don't tell me it's not worth trying for

Dm C Dm
You can't tell me it's not worth dying for

C/G G C
You know it's true, everything I do, I do it for you


C G

Look into your heart, you will find, there's

F G

nothing there to hide

C G
Take me as I am, take my life, I would

F C G

give it all, I would sacri fice

Dm C Dm
Don't tell me it's not worth fighting for

Dm C Dm
I can't help it, there's nothing I want more

C/G G C
You know it's true, everything I do, I do it for you


Bb Eb
There's no love like your love, and no

Bb F

other could give more love

C
There's no where unless

G D G

you're there, all the time, all the way


F C F C

   |----------|-------------------------------------------------------9------
|----------|-----------------------------------------9-9------9/11--11-11-
|-8-10-----|-8/10~--/10-8/6-3/6---6/8------6-6--8/10-----6-6--------------
|------8-8-|---------------------------6/8--------------------------------
|----------|--------------------------------------------------------------
|----------|--------------------------------------------------------------
-------------------------|
11/9/11------------------|
--------8h10--8b-8b-8b-6-| (bend the three 8's one half note each)
-------------------------|
-------------------------|
-------------------------|



Dm G
Oh you can't tell me it's not worth trying for

Dm G
I can't help it there's nothing I want more

F C G

Yeah I would fight for you, I'd lie for you, walk the

F Fm

wire for you, yeah I'd die for you

C G F F6 C
You know it's true, everything I do, oh, I do it for you

No comments:

Related Posts Plugin for WordPress, Blogger...
There was an error in this gadget