Sunday, December 26, 2010

Hello by Lionel Rithchie


Am G6 FM7 G6 FM7
I've been alone with you inside my mind


Am G6 FM7 G6 FM7
And in my dreams I've kissed your lips a thousand times


Am G6 FM7 G6 FM7
I sometimes see you pass outside my door


Am G6 FM7 A
Hel lo, is it me you're looking for?

Dm G C F
I can see it in your eyes, I can see it in your s mile

Bb E Am E7/B Am/C E7/B
You're all I've ever wanted and my arms are open wide

Dm G C F
'Cause you know just what to say and you know just what to do

Bb Am/E E Am G6
And I want to tell you so much, I love you
| FM7 G6 FM7 |
| Am G6 | FM7 G6 FM7 |

Am G6 FM7 G6 FM7
I long to see the sunlight in your hair


Am G6 FM7 G6 FM7
And tell you time and time again, how much I care


Am G6 FM7 G6 FM7
Some times I feel my heart will over flow


Am G6 FM7 A
He llo, I've just got to let you know

Dm G C F
'Cause I wonder where you are and I wonder what you do

Bb E Am E7/B Am/C E7/B
Are you somewhere feeling lonely or is someone loving you?

Dm G C F
Tell me how to win your heart for I haven't got a clue

Bb Am/E E Am G6
But let me start by say - ing, I love you
| FM7 G6 FM7 |
| Am G6 | FM7 G6 FM7
Solo
| Am G6 | FM7 G6 FM7 |

E----|-------------0--1-----0------------------|---------------------5----|
B----|----0--1--3--------3-----1//3--0-----1p0-|----3/5--3------3/5-----5-|
G----|-2---------------------------------------|-2------------------------|
D--2-|-----------------------------------------|--------------------------|
A----|-----------------------------------------|--------------------------|
E----|-----------------------------------------|--------------------------|

Am G6 | FM7 G6 FM7 |

E--7--8--5--7-----5---------------|---------------------3---------8-|
B--------------8-----5---3/5--3/5-|-3/5//3---------3/5-----3--------|
G------------------------2/4--2/4-|-3/4//2--5---5-------------------|
D---------------------------------|---------------------------------|
A---------------------------------|---------------------------------|
E---------------------------------|---------------------------------|

Am G6 | FM7 G6 FM7 |

E--10/12--13--12----8/10--12--10---8p7-|-8p7------------------------5----|
B--------------------------------------|------10--10/8/10------3/5-----5-|
G--------------------------------------|---------------------------------|
D--------------------------------------|---------------------------------|
A--------------------------------------|---------------------------------|
E--------------------------------------|---------------------------------|

Am G6 | FM7 A | Dm

E---7--8--5--7-----5---------|--------------------------------9--12-|-10----
B---------------8-----5------|----------------------------10--------|-------
G----------------------------|-------------------------9------------|-------
D----------------------------|---------------------11---------------|-------
A----------------------------|--------------------------------------|-------
E----------------------------|--------------------------------------|-------

Hello, is it me you're looking for? 'Cause I wonder

G C F
where you are and I wonder what you do

Bb E Am E7/B Am/C E7/B
Are you somewhere feeling lonely or is someone loving you?

Dm G C F
Tell me how to win your heart for I haven't got a clue
Bb Am/E E Am G6But let me start by say - ing, I love you
| FM7 G F | A |

No comments:

Related Posts Plugin for WordPress, Blogger...
There was an error in this gadget