Sunday, December 26, 2010

Here I am-Bryan Adams


E B
Here I am, this is me
A E
There's nowhere else on earth I'd ra ther be
A E
Here I am, just me and you
D B
Tonight we'll make our dream come true
Chorus II
E A E B
It's a new world, it's a new start
E A E B
It's a l ife with the beating of young hearts
E A E B
It's a new day, it's a new plan
A B
I've been waiting for you
Here I am

|-------7------------------------|
|--------------7--9--7-----------|
|--8h9------------------9-8p6----|
|-----------9--------------------|
|--------------------------------|
|--------------------------------|
|-----------7------------------------
|------------------7--9--7-----------
|------8h9------------------9-8p6----
|--9------------9--------------------
|------------------------------------
|------------------------------------



Repeat twice then


|-------------------------(4)-----
|-----------5---------------------
|--------------6------------------
|--9p6--7---------7---------------
|---------------------------------
|---------------------------------



here i am
riff
E B
Here we are, we 've just begun
A E
And after all this time, my time has come
A E
Yeah here we are, still going strong
D B
Right here in the place where we belong
Repeat Chorus II
Solo
A B
Waiting for you

Repeat Chorus I
Repeat Chorus II (twice)
Play E/A/B regularly
Here I am (twice)
Right next to you
Here I am
And suddenly the world is all brand new
Here I am (twice)
I am going to stay
And nothing's standing in our way
Oh here i am

END

No comments:

Related Posts Plugin for WordPress, Blogger...
There was an error in this gadget