Sunday, December 26, 2010

Winds of change-Scorpions


F Dm
PM PM P Vibr.........

1:------------------------------------------------------------------


2:------------------------------------------------------------------


3:------10---------------16-----------------------------------------


4:------10------------15-17--15-------------------------------------


5:-8----8-----0-15-17------------17---------------------------------


6:------------------------------------------------------------------

F Dm
PM PM P Vibr.........

1:------------------------------------------------------------------


2:------------------------------------------------------------------


3:------10---------------16-----------------------------------------


4:------10------------15-17--15-15----15----------------------------


5:-8----8-----0-15-17--------------17---(17)------------------------


6:------------------------------------------------------------------

Am Dm Am G
P

1:----------------------------------1-----------0-------------------


2:-------------------------------------3-----------1-------3--------


3:--16------------------------------------2-----------2-------4-----


4:--17-15-------17/19------------0-------------------------------5--


5:--------17----15/17-17--15-----------------0---------------------


6:--------------------------------------------------------3---------

Rhytmn Fill1
C
Verse1(without acoustic guitar):
w/keyboard
Fill1
C Dm C
I follow the Mosk va down to Gorky Park ,
Rhytmn Fill2 Rhytmn Fill1
C Dm Am G C
listening to the wind of change
C Dm C
An August summer night, soldiers passing by ,
Fill2
Rhytmn Fill2 Rhytmn Fill1
C Dm Am G
listening to the wind of change
Interlude:
w/acoustic guitar+keyboard+distortion guitar
F Dm
PM PM P Vibr.........

1:------------------------------------------------------------------


2:------------------------------------------------------------------


3:------10---------------16-----------------------------------------


4:------10------------15-17--15-------------------------------------


5:-8----8-----0-15-17------------17---------------------------------


6:------------------------------------------------------------------

F Dm
PM PM P Vibr.........

1:------------------------------------------------------------------


2:------------------------------------------------------------------


3:------10---------------16-----------------------------------------


4:------10------------15-17--15-15----15----------------------------


5:-8----8-----0-15-17--------------17-------------------------------


6:------------------------------------------------------------------

R.Fill2 R.Fill1
Am Dm Am G C
P

1:------------------------------------------------------------------


2:------------------------------------------------------------------


3:--16--------------------------------------------------------------


4:--17-15-------17/19-----------/19--/17----------------------------


5:--------17----15/17-15-15-----/17--/15--14------------------------


6:------------------------------------------------------------------

Verse2:
w/acoustic guitar+keyboard
C Dm C
The world is closing i n, and did you ever think
Fill3 R.Fill2 R.Fill1
C Dm Am G C
that we could be so close like broth ers
C Dm C
The future's in the air can feel it everywhe re
Fill4 R.Fill2
C Dm Am G
a blowin' in the wind of change
Chorus:
w/distortion guitar+acoustic guitar
C G Dm G C G
Take m e to the magic of the moment on a glory night ,
Dm G Am F G
where the children of tom orrow dream aw ay in the wind of c hange
Fill5
R.Fill2w/acoustic
C
Verse3:
w/acoustic guitar+keyboard
C Dm C
Walking down the street, distant memorie s
R.Fill2 R.Fill1
C Dm Am G C
are buried in the past fo rever
Fill6
C Dm C
I follow the Mosk va down to Gorky Park
R.Fill2
C Dm Am G
listen to the wind of change
Chorus:
w/distortion guitar+acoustic guitar
C G Dm G C G
Take m e to the magic of the moment on a glory night ,
Dm G Am F G
where the children of tom orrow share their dream s with you and m e
C G Dm G C G
Take m e to the magic of the moment on a glory night ,
Dm G Am F G
where the children of tom orrow dream aw ay in the wind of c hange
Bridge:
w/clean E-guitar+acoustic guitar
Fill7
Am G
The wind of change blows straight into the face of time,
Am G
like a stormwind that will ring the freedom bell for peace of mind.
C Dm E7
let your balalaika s ing what my guitar wants to sing
Solo:
E7
B B B Vib.

1:------------------------------------------------------------------


2:----------12-(13)-12-12-----------12-(13)-12-(13)-12--15/17-------


3:------14----------------------14----------------------------------


4:---14---------------------14--------------------------------------


5:------------------------------------------------------------------


6:------------------------------------------------------------------

E7 F G E7 B B
1:--------------------------------------------------------------------


2:---------12--13-----------------------------------------------------


3:-14--14----------14--12-14-12--14--12----12-(14)--12--12--9--10-(12)


4:--------------------------------------14-------------------------------


5:---------------------------------------------------------------------


6:---------------------------------------------------------------------

E7 Am F B
1:--------------------------------------0---------------------------


2:----------------------------------12--12-(13)-12-(13)-12-(13)-----


3:-10-9-7--9-(7)--9--7--5--7--7--14---------------------------------


4:------------------------------------------------------------------


5:------------------------------------------------------------------


6:------------------------------------------------------------------

Fill8
G Am F G E
1:----15-----------17---15--13---12--13--12-------------------------


2:--------13--12-------------------------------------13--12---12----


3:-----------------------------------------------14-----------------


4:------------------------------------------------------------------


5:------------------------------------------------------------------


6:------------------------------------------------------------------

Am Dm E7 B
1:-----------12-----12------13------------------16-16-14-----14-16---


2:--13--15-------15----15---------15-(17)--15-------------17---------


3:-------------------------------------------------------------------


4:-------------------------------------------------------------------


5:-------------------------------------------------------------------


6:-------------------------------------------------------------------

Chorus:
w/distortion guitar+acoustic guitar
C G Dm G C G
Take m e to the magic of the moment on a glory night ,
Dm G Am F G
where the children of tom orrow share their dream s with you and m e
C G Dm G C G
Take m e to the magic of the moment on a glory night ,
Dm G Am F G
where the children of tom orrow dream aw ay in the wind of c hange
Outro (without acoustic guitar):
w/ keyboard+distortion guitar
F Dm

No comments:

Related Posts Plugin for WordPress, Blogger...
There was an error in this gadget