Friday, December 31, 2010

Guitar chords for Bin there Reprise-I hate love stories

C Em Am(played without voice)


C Am C Am G(deodling here....)


Teri Nigahon ke
......c............
Teri hi raahon ke
........Am..........
Kareeb se gai zindagi
..F.......G........c...

Tujhe kyun dekha na
.....C.............
Tujhe kyun jana na
......Am..........
Shikayatein karun ya nahi
...F..........G........C..


Thami hai yeh saasein
..Am..................
Bhari hai yeh aanhkein
....C........Em.......
Sahu kaise abb yeh fasla
...Am...............G..


Bin Tere Bin Tere Bin Tereeee
...C.......Em..........Am
Koi khalish hai hawaon mein Bin Tere
....G..............F...............C


Bin Tere Bin Tere Bin Tereeee
...C.......Em..........Am
Koi khalish hai hawaon mein Bin Tere
....G..............F...............C

INSTRUMENTAL PART NOW

NOTE: 1) wherever I have put (s) it means slide through the strings in the fashion mentioned
2) "BEND STRINGS" means that you have to pull that string in that same fret while pressing the string in the same fret down or up along the fret board while pressing at the fret position mentioned....guys I don't think I am able to explain what i mean but I am sure other guys who know guitarring terms would help me in giving a name to the "BEND STRINGS" definition of mine. I am sure people must have understood what I mean.

following is my convention of mentioning tabs

=============================(1st string)
-------------------------------------(2nd string)
-------------------------------------(3rd string)
-------------------------------------(4th string)
-------------------------------------(5th string)
=============================(6th string)


==============================
---------------------------------------
----2-4-5-4---------------------------
--2---------s(5-7-5)--s(1-2)--5-2-----
---------------------------------------
==============================



=============================
--------------------------------------
--2-4--s(5-9)-7-5-4-------------------
--------------------s(5-7-5)-2--------
--------------------------------------
=============================


=============================
--------------------------------------
--2-4-s(5-9)--9-2-4--s(5-12)-12-------
--------------------------------------
--------------------------------------
=============================



now the part that seems too fast to play




================================================== =========
----10-12-12(bend string)-10-8---------------------------------------------
--9----------------------------9--s(7-9-7)-5--s(4-5-4)-2-------------------
---------------------------------------------------------5-----------------
-----------------------------------------------------------s(5-7)--5-3-2---
================================================== =========


now the last part

================================================== ======
---------------------------------------s(4-5)-3--s(8-12)-12(bend string))--
--5-4-0-5-4-0-2-s(2-3)-2-0-2-4-5-4-0-------------------------------------
-------------------------------------------------------------------------
-------------------------------------------------------------------------
================================================== =======



Kuch bacha hi nahi darmiyan
.....C...............Am.....
Saaans leti hai abb yeh dooriyann
.......G........F.............C..

Dil nahi janta raahon mein
.....C...............Am.....
Haath se haath chhoote the kahan
.......G........F.............C..
Kyun Nazar ke kinaare Tutte hai khwaab saaare Tu bata
.......C........Am..........C...........Am........ G...
Suna suna sama hai Khali khali jahan hai aab mera
.....C.......Am..........C.......Am............G.. .

Bin Tere Bin Tere Bin Tereeee
...C.......Em..........Am
Koi khalish hai hawaon mein Bin Tere
....G..............F...............C

hoooo Bin Tere Bin Tere Bin Tereeee
.........C.......Em..........Am
Koi khalish hai hawaon mein Bin Tere
....G..............F...............C

No comments:

Related Posts Plugin for WordPress, Blogger...
There was an error in this gadget